• Группы (исполнители)
  • Песни
  • Алфавитный указатель
  • О проекте

  • Партнеры:

Аккорды для песни Половинка

Все песни Танцы минус


Вариант №1
Вариант №2
Вариант №3
Вариант №4
Вариант №5
Вариант №6
Вариант №7
Вариант №8
Вариант №9

Вариант №1
				
 Dm      B(A#)  F        A        Dm

   У ночного огня,под огромной луной, 

           B       F         A         Dm

   Темный лес укрывал нас зеленой листвой 

        B      F        A      Dm 

   Я тебя целовал у ночного огня 

        B      F  A Dm B F     (A)      Dm      

   Я тебе подарил ........ половинку меня 

 

   Свет далекой звезды, песни птиц до утра, 

   Ты смотрела в глаза мои, шептала слова 

   Ты не верила мне, но любила меня 

   Я оставил с тобой ....... половинку себя 

    

   Все, что было - забыто, все, что было - прошло  

   Ты махала мне вслед бирюзовым платком

   Я тебя целовал у ночного огня 

   Ты оставила мне ...... половинку меня



 \\\'рекомендуется первый куплет играть перебором, как в оригинале -

 аккорды барре 

      Dm

  5 - 4 - 3 - 4  

      B(A#-Hb)

  5 - 3 - 4 - 3

      F

  6 - 5 - 4 - 5

      A

  6 - 5 - 4 - 5  
			

Вариант №2
				 Вступление:
 
   (D5)      (B5)        (F5)      (A5)
 |------------------------------------------|            
 |-------------1----------------------------|             
 |-----7-------------------------------2----| 
 |---7---7/-------3----------5-------2---2/-| \\
 |-5---------1-------1-----3---3/--0--------|  \\
 |-----------------------1------------------|   \\
                                                  на выбор
 |------------------------------------------|   /    
 |-------------1----------------------------|  /
 |-----7------------------------------------| /  
 |---7---7/-------3----------5--------7-----|       
 |-5---------1-------1-----3---3/-------7---|
 |-----------------------1----------5-----5-|

 Вступление играется перебором, а на месте F5
 
 играется такая раскоряка  

 X|-0-|      X|-0-|       
 X|-0-|      X|-0-|                       
 X|-0-|       |-0-|      
  |-5-|      X|-0-|      
  |-3-|       |-3-|                                            
  |-1-|  или  |-1-|                                             
 
 Переход с D5 на B5 (B5 см. ниже) скольжением

 Аккорд B5 в данном случае удобнее брать с баррэ:
 
 |-1-|  
 |-1-|
 |-3-|
 |-3-|
 |-1-|
 |-1-|


Если играете боем, то Dm и A лучше брать на 5-ом ладу

Играя последние 5 аккордов куплета, усиливайте ритм
 
 Dm    B      F       A           Dm
 У ночного огня, под огpомной луной
        B        F          A       Dm
 Темный лес укpывал нас зеленой листвой
     B       F        A     Dm
 Я тебя целовал у ночного огня
     B      F   A  Dm  B  F
 Я тебе подаpил             половинку себя
 
 Свет далекой звезды песни птиц до утpа
 Ты смотpела в глаза мои шептала слова
 Ты не веpила мне, но любила меня
 Я оставил с тобой половинку себя
 
 Все что было забыто то что было пpошло
 Ты махала мне вслед биpюзовым платком
 Я тебя целовал у ночного огня
 Ты оставила мне половинку меня
 
 Соло:
                                                         3x
 |---------------------------------------------------------|
 |---------------------------------------------------------|
 |*-7~-7~~--7b8r7-5---7--7b8r7-5---7--7b8r7-5---7--5---5~-*|
 |*-----------------7------------7-----------7-------7----*|
 |---------------------------------------------------------|
 |---------------------------------------------------------|
 
 |---------------------------------------------------------|
 |---------------------------------------------------------|
 |-7~-7~~--7b8r7-5---7--7b8r7-5---7--7b8r7-5---7--5------7-|
 |-----------------7------------7------------7------7-5--7-|
 |-------------------------------------------------------5-|
 |---------------------------------------------------------|
			

Вариант №3
				Тут только табулатура т.к. текст здесь уже есть =)



1----------|-----------|-----------|------------|

2----------|---1-------|-----------|------------|

3-----7----|-----0-----|-----0-----|------------|

4---7---7--|-----------|-----------|------7-----|

5-5--------|-1------1--|---3----3--|----7---7---|

6----------|-----------|-1---------|--5---------|

Иногда играется по-другому(но редко): 

               /\\                       /\\  

              /||\\                     /||\\

               ||                       ||

           1|----------|          1|------------|          

           2|----------|          2|------------|          

           3|----------|          3|------------|          

           4|-----8----|          4|----7-------|          

           5|---8---8--|          5|------7-----|          

           6|-6--------|          6|--5-----5---|          
			

Вариант №4
				
       Dm           Fm         Fm          A
e\\- - - - - -\\- - - - - -\\- - - - - -\\- - - - - -\\
h\\- - - 3 - -\\- - 1 - - -\\- - - - - -\\- - - - - -\\
g\\- - 2 - 2 -\\- - - - - -\\- - 1 - - -\\- - - 2 - -\\
d\\- 0 - - - -\\- - - 3 - -\\- - - - - -\\- - 2 - 2 -\\
a\\- - - - - -\\- 1 - - 1 -\\- 3 - 3 - -\\- 0 - - - -\\
e\\- - - - - -\\- - - - - -\\1 - - - - -\\- - - - - -\\
    У ночного огня под огромной луной 
    Тёмный лес укрывал нас зелёной листвой
    Я тебя целовал у ночного огня, 
    Я тебе подарил......половинку себя
    
    Свет далёкой звезды пенье птиц до утра
    Ты смотрела в глаза мои шептала слова, 
    Ты неверила мне,но любила меня 
    Я оставил с тобой.....половинку себя
    То,что было забыто,то,что было прошло
    Ты махала мне в след бирюзовым платком
    Ятебя целовал у ночного огня,
    Ты оставила мне......половинку меня.
    
			

Вариант №5
				Intro:
Riff1 (2 раза):
E|------------0----------------------------------
H|----------0---0----3---------------------------
G|----------------------0--------0---------4-----
D|------2---------------------0----0----4----4---
A|----------------3-------3-----------2----------
E|--------------------------3--------------------
Или я трамвай, или это играется так!
И соло(используйте slide):
E|------------------------------------------
H|------------------------------------------
G|------------------------------------------
D|--2-2-2-4-2-0-2-2-4-2-0-2-2-4-2-0-2-0---0-
A|--------------------------------------0---
E|------------------------------------------			

Вариант №6
				
Проигрыш:

  Dm       B           F          A
E|------------------------------------------|
B|-------------1----------------------------|
G|-----7---------------------2---------2----|
D|---7---7/-------3------------------2---2/-|
A|-5---------1-------1-----3---3---0--------|
E|----------------------1-------------------|

E|------------------------------------------|
B|-------------1----------------------------|
G|-----7---------------------2--------------|
D|---7---7/-------3-------------------7-----|
A|-5---------1-------1-----3---3/-------7---|
E|-----------------------1----------5-----5-|

Dm   B      F       A           Dm
У ночного огня, под огромной луной
       B        F          A       Dm
Темный лес укрывал нас зеленой листвой
    B       F        A     Dm
Я тебя целовал у ночного огня
    B      F   A  Dm  B  F
Я тебе подарил             половинку себя

Свет далекой звезды песни птиц до утра
Ты смотрела в глаза мои шептала слова
Ты не верила мне, но любила меня
Я оставил с тобой половинку себя

Все что было забыто то что было прошло
Ты махала мне вслед бирюзовым платком
Я тебя целовал у ночного огня
Ты оставила мне половинку меня

Solo:
                                                         3x
E|-------------------------------------------------------------|
B|-------------------------------------------------------------|
G|*-7~-7~--5-7b8r7-5---7--7b8r7-5---7--7b8r7-5---7--5---5~----*|
D|*------------------7------------7------------7------7-------*|
A|-------------------------------------------------------------|
E|-------------------------------------------------------------|

E|-------------------------------------------------------------|
B|-------------------------------------------------------------|
G|-7~-7~--5-7b8r7-5---7--7b8r7-5---7--7b8r7-5---7--5------7----|
D|------------------7------------7------------7------7-5--7----|
A|--------------------------------------------------------5----|
E|-------------------------------------------------------------|
			

Вариант №7
				
Em     C        G     Н7          Em
У ночного огня под огромной луной
       C         G         Н7       Em
Темный лес укрывал нас зеленой листвой
    C        G       Н7      Em
Я тебя целовал у ночного огня
     C      G         Н7     Em
Я тебе подарил половинку себя

               II

Em      C         G          Н7     Em
Свет далекой звезды песни птиц до утра
        C         G       Н7        Em
Ты смотрела в глаза мои шептала слова
        C    G      Н7        Em
Ты не верила мне но любила меня
     C        G       Н7       Em
Я оставил с тобой половинку себя

               II

То что было забыто то что было прошло

Ты махала мне в след бирюзовым платком

Я тебя целовал у ночного огня

Ты оставила мне половинку себя
			

Вариант №8
				
Проигрыш:

  Dm       B           F          A
E|------------------------------------------|
B|-------------1----------------------------|
G|-----7---------------------2---------2----|
D|---7---7/-------3------------------2---2/-|
A|-5---------1-------1-----3---3---0--------|
E|----------------------1-------------------|

E|------------------------------------------|
B|-------------1----------------------------|
G|-----7---------------------2--------------|
D|---7---7/-------3-------------------7-----|
A|-5---------1-------1-----3---3/-------7---|
E|-----------------------1----------5-----5-|

Dm   B      F       A           Dm
У ночного огня, под огромной луной
       B        F          A       Dm
Темный лес укрывал нас зеленой листвой
    B       F        A     Dm
Я тебя целовал у ночного огня
    B      F   A  Dm  B  F
Я тебе подарил             половинку себя

Свет далекой звезды песни птиц до утра
Ты смотрела в глаза мои шептала слова
Ты не верила мне, но любила меня
Я оставил с тобой половинку себя

Все что было забыто то что было прошло
Ты махала мне вслед бирюзовым платком
Я тебя целовал у ночного огня
Ты оставила мне половинку меня

Solo:
                                                         3x
E|-------------------------------------------------------------|
B|-------------------------------------------------------------|
G|*-7~-7~--5-7b8r7-5---7--7b8r7-5---7--7b8r7-5---7--5---5~----*|
D|*------------------7------------7------------7------7-------*|
A|-------------------------------------------------------------|
E|-------------------------------------------------------------|

E|-------------------------------------------------------------|
B|-------------------------------------------------------------|
G|-7~-7~--5-7b8r7-5---7--7b8r7-5---7--7b8r7-5---7--5------7----|
D|------------------7------------7------------7------7-5--7----|
A|--------------------------------------------------------5----|
E|-------------------------------------------------------------|
			

Вариант №9
				
Em     C        G     Н7          Em
У ночного огня под огромной луной
       C         G         Н7       Em
Темный лес укрывал нас зеленой листвой
    C        G       Н7      Em
Я тебя целовал у ночного огня
     C      G         Н7     Em
Я тебе подарил половинку себя

               II

Em      C         G          Н7     Em
Свет далекой звезды песни птиц до утра
        C         G       Н7        Em
Ты смотрела в глаза мои шептала слова
        C    G      Н7        Em
Ты не верила мне но любила меня
     C        G       Н7       Em
Я оставил с тобой половинку себя

               II

То что было забыто то что было прошло

Ты махала мне в след бирюзовым платком

Я тебя целовал у ночного огня

Ты оставила мне половинку себя